Вес резины на ATV

Для печати

Вес резины на ATV

Сообщение Тимошка » 21 фев 2013, 18:53

Решил собрать все данные по весу резины в одну статью ,так как вес важный критерий по выбору резины в следующей статье будет высота грунтозацепа=)
На атв форуме есть так же эта статья,некоторые пишут про расхождение в весе кенды.Имхо я считаю,что в моей таблице указан вес 6 слоев которые поставляются в Сша,а у нас ходят слухи,что кенда 4 слоя.
-------------------------------------------------------------
ITP
MUD LITE XXL
30x10-12 ------------------------ 15,0 кг.
30x12-12 ------------------------ 16,9 кг.
30x10-14 ------------------------ 15,5 кг.
30x12-14 ------------------------ 17,0 кг.
Mudlite XL
25x8-12 -------------------- 10,9кг.
25x10-12 ------------------- 13,2кг.
25x12-12 ------------------- 11,8кг.
26x9-12 -------------------- 10,1кг.
26x10-12 ------------------- 10,2кг.
26x12-12 ------------------- 12,3кг.
27x9-12 --------------------- 11,4кг.
27x10-12 ------------------- 11,8кг.
27x12-12 ------------------- 12,7кг.
28x10-12 ------------------- 12,3кг.
28x12-12 ------------------- 13,6кг.
27x10-14 ------------------- 12,7кг.
27x12-14 ------------------- 14,1кг.
Mudlite XTR
25x8-12 ---------------------- 10,3кг.
25x10-12 --------------------- 12,5кг.
26x9-12 ----------------------- 12,2кг.
26x11-12---------------------- 14.7кг.
27x9-12 ----------------------- 12,7кг.
27x11-12 ---------------------- 15.7кг.
27x9-14 ----------------------- 12,1кг
27x11-14 ---------------------- 15.1кг.
Mudlite AT
25x8-12 -------------------- 6.8кг.
25x10-12 ------------------- 8.8кг.
MEGA MAYHEM
27x9-12 --------------------- 13,7кг.
27x11-12 ------------------- 15,3кг.
28x9-12 ------------------- 14,7кг.
28x11-12 ------------------- 15,6кг.
27x9-14 ------------------- 12,8кг.
27x11-14 ------------------- 15кг.
28x9-14 ------------------- 13,5кг.
28x11-14 ------------------- 15,1кг.
589
25x8-12 ------------------------ 9,1кг.
25x10-12 ---------------------- 11,8кг.
26x9-12 ------------------------ 12,3кг.
26x12-12 ----------------------- 14,5кг.
27x9-12 ------------------------ 12,9кг.
27x11-12----------------------- 14,1кг.
28x9-12 ------------------------ 12,5кг.
28x11-12 ---------------------- 14,3кг.
27x9-14 ------------------------ 12,1кг.
27x11-14----------------------- 13,2кг.
Black water Evolution
26x9x12----------------------- 12.2кг
26x11x12----------------------- 13.7кг
Terracross
25x8-12 -------------------- 8,1кг.
25x10-12 ------------------- 10,8кг.
26x9-12 -------------------- 10кг.
26x11-12 ------------------- 12,2кг.
26x9-14 -------------------- 10.7кг.
26x11-14 ------------------- 13,9кг.
BajaCross
25x8-12 -------------------- 10,2кг.
25x10-12 ------------------- 12,2кг.
26x9-12 -------------------- 12.5кг.
26x11-12 ------------------- 15кг.
26x10-14 -------------------- 11.9кг.
26x11-14 ------------------- 12,9кг.
28x10-14 -------------------- 14.5кг.
TundraCross
25x9-12 -------------------- 8.5кг.
25x10-12 ------------------- 8.8кг.
HOLESHOT
SXS
25X9-12------------------- 10.2кг.
25-11-12------------------- 12.2кг.
ATR
25X8X12------------------- 8.1кг.
Gorilla Silverback
27x10-12 -------------------- 13,5кг.
27x12-12 ------------------- 17,5кг.
28x10-12 ------------------- 15.3кг.
28x12-12 ------------------- 18.9кг.
30x10-12 -------------------20кг
30x9-14 -------------------17.1кг
30x11-14 -------------------19.35кг
32x10-14-------------------23.4кг

-------------------------------------------------------------

Kenda
299 Bearclaw
25x8-12 ------------------- 8,2кг.
25x10-12 ------------------ 12,7кг.
25x12.5-12 ---------------- 14,1кг.
26x9-12 ------------------- 10,9кг.
26x12-12 ------------------ 16кг.
27x10-12 ----------------- 11,8кг.
27x12-12 ------------------ 16,4кг.
BEARCLAW HTR
25X8-12------------------9.45 кг.
25X10-12------------------ 11.4кг.
26X9-12------------------ 10.5кг.
26X11-12------------------13.9 кг.
27X9-12------------------ 11.2кг.
27X11-12------------------ 14.2кг.
26X9-14------------------11.25кг.
26X11-14------------------13.2 кг.
Executioner
25x8-12 ----------------- 9,1кг.
25x10-12----------------- 10,1кг.
26x10-12 ---------------- 15кг.
26x12-12 ---------------- 16кг.
27x10-12 ---------------- 16кг.
27x12-12 ---------------- 16,7кг.

-------------------------------------------------------------------

Maxxis
Mud bug radial
25x8-12--------------------- 8.3 кг.
25x10-12--------------------- 10.0 кг.
26x9-12--------------------- 8.6 кг.
26x11-12--------------------- 11.0 кг.
26x9-14--------------------- 9.1 кг.
26x11-14--------------------- 11.2 кг.
Bighorn
25x8-12--------------------- 10.2 кг.
26x9-12--------------------- 10.9 кг.
27x9-12--------------------- 11.4 кг.
26x9-14--------------------- 10.4 кг.
25x10-12--------------------- 13.0 кг.
26x12-12--------------------- 13.8 кг.
27x12-12--------------------- 14.9 кг.
26x11-14--------------------- 12.6 кг.
Zilla
25X8-12--------------------- 6,6 кг.
25X8-12----------------------8,8 кг.
26X9-12----------------------9,2 кг.
27X9-12----------------------9,8 кг.
28X10-12-------------------11,8 кг.
26X9-14---------------------9,4 кг.
27X10-14-------------------10,4 кг.
28X9-14--------------------10,8 кг.
25X11-10---------------------8,8 кг.
25X10-12---------------------8,3 кг.
25X10-12---------------------9,6 кг.
26X11-12--------------------10,8 кг.
27X11-12---------------------11,0 кг.
28X12-12---------------------12,5 кг.
26X11-14---------------------10,8 кг.
27X12-14---------------------12,0 кг.
28X11-14---------------------12,1 кг.
Mudzilla
AT25x8-12---------------------11.2 кг.
AT25x10-12---------------------13.3 кг.
AT26x9-12---------------------12.6 кг.
AT26x12-12---------------------15.5 кг.
AT27x9-12---------------------12.8 кг.
AT27x12-12---------------------17.4 кг.
AT28x8-12---------------------13.2 кг.
AT28x10-12---------------------16.2 кг.
AT28x12-12---------------------18.7 кг.
AT30x9-14---------------------17.3 кг.
AT30x11-14---------------------20.0 кг.
Mudbug
AT25x8-12---------------------8.9 кг.
AT26x10-12---------------------11.1 кг.
AT27x8-12---------------------9.8 кг.
AT27x10-12---------------------10.6 кг.
AT28x10-12---------------------11.6 кг.
AT25x10-12---------------------10.3 кг.
AT26x12-12---------------------12.8 кг.
AT27x12-12---------------------12.8 кг.
AT28x12-12---------------------13.8 кг.

-------------------------------------------------------------------

Deestone
936, он же Dirt Devil, он же Mudcrusher, он же Дьявол:
26x10-12 --------------------- 12,5кг.
26x12-12 --------------------- 15,2кг.
27x10-12 --------------------- 13,3кг.
27x12-12 --------------------- 15,3кг.
932 Swamp Witch, она же Болотная Ведьма
26x10-12 --------------------- 12,3кг
26х12-12 --------------------- 15,1кг
27x10-12 --------------------- 13,6кг
27х12-12 --------------------- 15,0кг
28x10-12 --------------------- 14,5кг
28х12-12 --------------------- 17,1кг

-------------------------------------------------------------------

Interco
Swamp Lite
26X12- 12 ---------------------13.95кг
26X10-12---------------------12.15кг
26X9-12---------------------11.7кг
27X9- 12---------------------12.2кг
27X10-12--------------------13.05кг
27X12-12---------------------13.5кг
28X10-12---------------------17.1кг
29.5X10- 12---------------------18кг
27x9-14 --------------------- 12.15 кг
27x11-14--------------------- 13.95 кг
28x9-14 --------------------- 12.5 кг
28x11-14--------------------- 15.5 кг
Black mamba
27X10-12---------------------24.75кг
30X10-12---------------------29.7кг
30X10-14---------------------29.5кг
32.5X10-14---------------------31.5кг
Vampires
26X9.5-12 ---------------------10.8кг
26X12-12 ---------------------14.4кг
27X10-12 ---------------------11.25кг
27X12-12--------------------- 14.6кг
28X10-12 ---------------------16.65кг

-------------------------------------------------------------------

High Lifter
OUTLAW
26x10x12--------------------- 12.8кг
26x12x12--------------------- 15.7кг
27x9.5x12--------------------- 13.6кг
27x12x12 --------------------- 15.9кг
28x9.5x12---------------------- 14.2кг
28x10.5x12--------------------- 15.3кг
28x12.5x12--------------------- 17.4кг
29.5x10x12--------------------- 17.1кг
29.5x12x12 --------------------- 19.3кг
31x9.5x14--------------------- 17.5кг
31x11x14--------------------- 19.8кг

-------------------------------------------------------------------

STORMBRINGER
NOMO
26х9-12---------------------10.1 кг
26х10-12---------------------11.8 кг
26х12-12---------------------12.5 кг
27х9-12---------------------10,8 кг
27х10-12---------------------11,4 кг
27х12-12---------------------13,9 кг
27х9-14---------------------11.2 кг
27х11-14---------------------14.1 кг
STORM
26х9-12---------------------12.1 кг
26х12-12---------------------14 кг
27х9-12---------------------13.2 кг
27х12-12---------------------15,7 кг

-------------------------------------------------------------------

Carlisle
MUD WOLF
25x8-12--------------------- 10,6кг
25x11-12--------------------- 14 кг
26x9-12 ---------------------12,8 кг
26x12-12 ---------------------16,1 кг
27x9-12--------------------- 14,1 кг
27x12-12--------------------- 17,9 кг
MUD WOLF XL
26x9-14--------------------- 9,5 кг
26x11-14 ---------------------12,6 кг
ACT
23x7-12--------------------- 6,5 кг
23x10-12--------------------- 8,2 кг
25x8-12 ---------------------8,2 кг
25x11-12 ---------------------10,8 кг
26x8-12 ---------------------7,8 кг
26x10-12 ---------------------10,3 кг
ACT HD
25x8-12--------------------- 9,8 кг
25x11-12--------------------- 12,5 кг
26x9-12 ---------------------11,6 кг
26x11-12--------------------- 13,8 кг
27x9-12 ---------------------12 кг
27x11-12 ---------------------14,4 кг
BLACK ROCK
25x8-12--------------------- 8,1 кг
25x11-12 ---------------------9,2 кг
26x9-12--------------------- 8,6 кг
26x11-12 ---------------------10,5 кг
27x9-14 ---------------------10,3 кг
27x11-14 ---------------------12,1 кг
AT489 X/L
26x8-12--------------------- 7,8 кг
26x11-12 ---------------------11 кг
27x9-12--------------------- 8,6 кг
27x11-12--------------------- 11,2 кг
AT489 II
26x8-14 ---------------------7,5 кг
26x10-14---------------------9,8 кг
ALL TRAIL
25x8-12---------------------8,9 кг
25x10.5-12---------------------12 кг

-------------------------------------------------------------------
CST
Ancla
25x8-12--------------------- 10,2 кг
25x10-12---------------------10,8 кг
25x11-12 ---------------------10.8 кг
26x9-12--------------------- 11,2 кг
26x11-12 ---------------------11.4 кг
26x12-12 ---------------------11.6 кг
POLARIS Sportsman 800-2012(Winch Polaris 2500,Tires ITP Mud Lite xxl 30)
Polaris Rzr 800-2008( Lone Star Racing a-arms +4,Elka stage 2+R front,Elka stage 4 rear,Exhaust Muzzy Dual,Power comander 3,Tires Maxxis bighorn 1.0 26)
Аватар пользователя
Тимошка
Активный Участник
 
Сообщений: 458
Зарегистрирован: 12 фев 2013, 20:11
Откуда: Барнаул
Благодарил (а): 57 раз.
Поблагодарили: 66 раз.
Техника: POLARIS Sportsman 800-Polaris Rzr 800
Настоящее имя: Артём

Re: Вес резины на ATV

Сообщение atvtyre » 19 мар 2013, 18:53

Вес шин марки SUN.F

A-001 -- 21"*7.00"-10" -- 5,5 кг
A-001 -- 22"*10.00"-10" -- 7,6 кг
A-003 -- 19"*7.00"-8" -- 4,74 кг
A-003 -- 19"*9.50"-8" -- 5,9 кг
A-004 -- 16"*8.00"-7" -- 3,28 кг
A-004 -- 19"*7.00"-8" -- 3,86 кг
A-004 -- 19"*9.50"-8" -- 4,78 кг
A-004 -- 21"*8.00"-10" -- 5 кг
A-004 -- 22"*10.00"-10" -- 6,98 кг
A-024 -- 25"*8.00"-12" -- 8,38 кг
A-024 -- 25"*10.00"-12" -- 10,92 кг
A-027F -- 22"*7.00"-10" -- 5,6 кг
A-027R -- 22"*10.00"-10" -- 8 кг
A-031F -- 20"*6.00"-10" -- 4,2 кг
A-031R -- 18"*10.00"-8" -- 5,3 кг
A-031R -- 22"*11.00"-9" -- 5 кг
A-033 -- 24"*11.00"-10" -- 11 кг
A-033 -- 25"*8.00"-12" -- 9 кг
A-033 -- 25"*10.00"-12" -- 11,2 кг
A-033 -- 27"*9.00"-12" -- 12,2 кг
A-033 -- 27"*12.00"-12" -- 15 кг
A-033 -- 27"*9.00"-14" -- 13,6 кг
A-033 -- 27"*11.00"-14" -- 15,1 кг
A-043 -- 26"*9.00"R14" -- 11,2 кг
A-043 -- 26"*11.00"R14" -- 13,2 кг

Про шины SUN.F - http://atvtyre.ru/
Шины для квадроциклов SUN.F
+7 916 562 52 79 info@atvtyre.ru
http://atvtyre.ru/
Аватар пользователя
atvtyre
Новичок
 
Сообщений: 15
Зарегистрирован: 19 мар 2013, 16:46
Откуда: Подольск
Благодарил (а): 0 раз.
Поблагодарили: 0 раз.
Техника: Крутая

Re: Вес резины на ATV

Сообщение Evgen82 » 22 мар 2013, 22:17

Очень, очень полезная информация.
+79832694508
Лучше переспать, чем не доесть.
RZR это следующая ступень квадроциклиста, после квадрика. ИМХО конечно.
Аватар пользователя
Evgen82
BAD COMPANY
 
Сообщений: 110
Зарегистрирован: 20 янв 2013, 16:41
Благодарил (а): 1 раз.
Поблагодарили: 5 раз.
Техника: Polaris

Re: Вес резины на ATV

Сообщение ~ZeroCool~ » 23 мар 2013, 20:28

atvtyre писал(а):Вес шин марки SUN.F



что то тяжеловаты...
Не говорите мне что делать и я не скажу куда вам идти...
[Для просмотра изображения необходимо включить JavaScript]
Аватар пользователя
~ZeroCool~
Активный Участник
 
Сообщений: 390
Зарегистрирован: 10 янв 2013, 18:11
Откуда: Сергиев Посад
Благодарил (а): 67 раз.
Поблагодарили: 34 раз.
Техника: CECTEK KingCobraT6, Polaris RZR 800S-тест
Настоящее имя: Андрей

Re: Вес резины на ATV

Сообщение atvtyre » 23 мар 2013, 22:38

что то тяжеловаты...

На много? :smu:sche_nie:
Шины для квадроциклов SUN.F
+7 916 562 52 79 info@atvtyre.ru
http://atvtyre.ru/
Аватар пользователя
atvtyre
Новичок
 
Сообщений: 15
Зарегистрирован: 19 мар 2013, 16:46
Откуда: Подольск
Благодарил (а): 0 раз.
Поблагодарили: 0 раз.
Техника: Крутая

Re: Вес резины на ATV

Сообщение ~ZeroCool~ » 23 мар 2013, 23:56

atvtyre писал(а):
что то тяжеловаты...

На много? :smu:sche_nie:


да нет не на много, но каждый килограмм неподрессореных масс очень заметно отражается
Не говорите мне что делать и я не скажу куда вам идти...
[Для просмотра изображения необходимо включить JavaScript]
Аватар пользователя
~ZeroCool~
Активный Участник
 
Сообщений: 390
Зарегистрирован: 10 янв 2013, 18:11
Откуда: Сергиев Посад
Благодарил (а): 67 раз.
Поблагодарили: 34 раз.
Техника: CECTEK KingCobraT6, Polaris RZR 800S-тест
Настоящее имя: Андрей

Re: Вес резины на ATV

Сообщение atvtyre » 24 мар 2013, 01:12

Вы меня пугаете!!! Речь идёт на килограммы??? :men:
Шины для квадроциклов SUN.F
+7 916 562 52 79 info@atvtyre.ru
http://atvtyre.ru/
Аватар пользователя
atvtyre
Новичок
 
Сообщений: 15
Зарегистрирован: 19 мар 2013, 16:46
Откуда: Подольск
Благодарил (а): 0 раз.
Поблагодарили: 0 раз.
Техника: Крутая

Re: Вес резины на ATV

Сообщение Тимошка » 24 мар 2013, 09:47

atvtyre писал(а):Вы меня пугаете!!! Речь идёт на килограммы??? :men:

Для примера берем
A-033 -- 27"*9.00"-14-- 13,6 кг
A-033 -- 27"*11.00"-14" -- 15,1 кг
Общий вес 57.4 кг
STORMBRINGER NOMO
27х9-14--11.2 кг
27х11-14--14.1 кг
Общий вес 50.6
Разница 6.8 кг,для резины это очень прилично!Обе 6 слоев и диагональные.
POLARIS Sportsman 800-2012(Winch Polaris 2500,Tires ITP Mud Lite xxl 30)
Polaris Rzr 800-2008( Lone Star Racing a-arms +4,Elka stage 2+R front,Elka stage 4 rear,Exhaust Muzzy Dual,Power comander 3,Tires Maxxis bighorn 1.0 26)
Аватар пользователя
Тимошка
Активный Участник
 
Сообщений: 458
Зарегистрирован: 12 фев 2013, 20:11
Откуда: Барнаул
Благодарил (а): 57 раз.
Поблагодарили: 66 раз.
Техника: POLARIS Sportsman 800-Polaris Rzr 800
Настоящее имя: Артём

Re: Вес резины на ATV

Сообщение atvtyre » 24 мар 2013, 13:07

Перепроверил данные -
А-033 27"*9.00-14 - 10.7
A-033 27"*11.00"-14" - 15.1

Завтра перепроверю полностью.
Приношу свои извинения за не точность в таблице.
Шины для квадроциклов SUN.F
+7 916 562 52 79 info@atvtyre.ru
http://atvtyre.ru/
Аватар пользователя
atvtyre
Новичок
 
Сообщений: 15
Зарегистрирован: 19 мар 2013, 16:46
Откуда: Подольск
Благодарил (а): 0 раз.
Поблагодарили: 0 раз.
Техника: Крутая

Re: Вес резины на ATV

Сообщение ~ZeroCool~ » 24 мар 2013, 20:28

atvtyre писал(а):Вы меня пугаете!!! Речь идёт на килограммы??? :men:


Именно так
Не говорите мне что делать и я не скажу куда вам идти...
[Для просмотра изображения необходимо включить JavaScript]
Аватар пользователя
~ZeroCool~
Активный Участник
 
Сообщений: 390
Зарегистрирован: 10 янв 2013, 18:11
Откуда: Сергиев Посад
Благодарил (а): 67 раз.
Поблагодарили: 34 раз.
Техника: CECTEK KingCobraT6, Polaris RZR 800S-тест
Настоящее имя: Андрей

Re: Вес резины на ATV

Сообщение ~ZeroCool~ » 24 мар 2013, 20:29

atvtyre писал(а):Перепроверил данные -
А-033 27"*9.00-14 - 10.7
A-033 27"*11.00"-14" - 15.1

Завтра перепроверю полностью.
Приношу свои извинения за не точность в таблице.


Уже интереснее, но все же........
Не говорите мне что делать и я не скажу куда вам идти...
[Для просмотра изображения необходимо включить JavaScript]
Аватар пользователя
~ZeroCool~
Активный Участник
 
Сообщений: 390
Зарегистрирован: 10 янв 2013, 18:11
Откуда: Сергиев Посад
Благодарил (а): 67 раз.
Поблагодарили: 34 раз.
Техника: CECTEK KingCobraT6, Polaris RZR 800S-тест
Настоящее имя: Андрей

Re: Вес резины на ATV

Сообщение Серый » 24 мар 2013, 23:49

А можно расшифровать, а чем конкретно отличается вся эта резина. Размер, вес понятно по цифрам догадаться можно, а вот в целом.
Аватар пользователя
Серый
Активный Участник
 
Сообщений: 319
Зарегистрирован: 06 мар 2013, 23:31
Откуда: Предуралье
Благодарил (а): 35 раз.
Поблагодарили: 15 раз.
Техника: Не указано

Re: Вес резины на ATV

Сообщение Тимошка » 25 мар 2013, 07:47

Серый писал(а):А можно расшифровать, а чем конкретно отличается вся эта резина. Размер, вес понятно по цифрам догадаться можно, а вот в целом.

Резина в первую очередь различается конструкцией радиальной или диагональной,протектор и высота зацепа,ну и слойность 4,6 и 8. :-):
POLARIS Sportsman 800-2012(Winch Polaris 2500,Tires ITP Mud Lite xxl 30)
Polaris Rzr 800-2008( Lone Star Racing a-arms +4,Elka stage 2+R front,Elka stage 4 rear,Exhaust Muzzy Dual,Power comander 3,Tires Maxxis bighorn 1.0 26)
Аватар пользователя
Тимошка
Активный Участник
 
Сообщений: 458
Зарегистрирован: 12 фев 2013, 20:11
Откуда: Барнаул
Благодарил (а): 57 раз.
Поблагодарили: 66 раз.
Техника: POLARIS Sportsman 800-Polaris Rzr 800
Настоящее имя: Артём

Re: Вес резины на ATV

Сообщение ~ZeroCool~ » 26 мар 2013, 00:24

Тимошка писал(а):
Серый писал(а):А можно расшифровать, а чем конкретно отличается вся эта резина. Размер, вес понятно по цифрам догадаться можно, а вот в целом.

Резина в первую очередь различается конструкцией радиальной или диагональной,протектор и высота зацепа,ну и слойность 4,6 и 8. :-):



все верно, но есть еще и 9 :a_g_a: :nez-nayu: кенда палач например
Не говорите мне что делать и я не скажу куда вам идти...
[Для просмотра изображения необходимо включить JavaScript]
Аватар пользователя
~ZeroCool~
Активный Участник
 
Сообщений: 390
Зарегистрирован: 10 янв 2013, 18:11
Откуда: Сергиев Посад
Благодарил (а): 67 раз.
Поблагодарили: 34 раз.
Техника: CECTEK KingCobraT6, Polaris RZR 800S-тест
Настоящее имя: Андрей

Re: Вес резины на ATV

Сообщение Тимошка » 26 мар 2013, 10:34

~ZeroCool~ писал(а):
Тимошка писал(а):
Серый писал(а):А можно расшифровать, а чем конкретно отличается вся эта резина. Размер, вес понятно по цифрам догадаться можно, а вот в целом.

Резина в первую очередь различается конструкцией радиальной или диагональной,протектор и высота зацепа,ну и слойность 4,6 и 8. :-):



все верно, но есть еще и 9 :a_g_a: :nez-nayu: кенда палач например

9 слоев в палаче?Пошел гуглить :-):
POLARIS Sportsman 800-2012(Winch Polaris 2500,Tires ITP Mud Lite xxl 30)
Polaris Rzr 800-2008( Lone Star Racing a-arms +4,Elka stage 2+R front,Elka stage 4 rear,Exhaust Muzzy Dual,Power comander 3,Tires Maxxis bighorn 1.0 26)
Аватар пользователя
Тимошка
Активный Участник
 
Сообщений: 458
Зарегистрирован: 12 фев 2013, 20:11
Откуда: Барнаул
Благодарил (а): 57 раз.
Поблагодарили: 66 раз.
Техника: POLARIS Sportsman 800-Polaris Rzr 800
Настоящее имя: Артём

Re: Вес резины на ATV

Сообщение Тимошка » 26 мар 2013, 10:39

Данные с офф сайта кенды 6 слоев в палаче :-):
8 слоев в ITP BLACKWATER EVOLUTION,что бы было больше не слышал ни разу :ne_vi_del:
[Для просмотра изображения необходимо включить JavaScript]
POLARIS Sportsman 800-2012(Winch Polaris 2500,Tires ITP Mud Lite xxl 30)
Polaris Rzr 800-2008( Lone Star Racing a-arms +4,Elka stage 2+R front,Elka stage 4 rear,Exhaust Muzzy Dual,Power comander 3,Tires Maxxis bighorn 1.0 26)
Аватар пользователя
Тимошка
Активный Участник
 
Сообщений: 458
Зарегистрирован: 12 фев 2013, 20:11
Откуда: Барнаул
Благодарил (а): 57 раз.
Поблагодарили: 66 раз.
Техника: POLARIS Sportsman 800-Polaris Rzr 800
Настоящее имя: Артём

Re: Вес резины на ATV

Сообщение Тимошка » 26 мар 2013, 10:54

Добавим вес всей линейки Black water Evolution
25x9R-12--------------------11,6кг.
25x11R-12-------------------12,9кг.
26x9R-12--------------------12,2кг.
26x11R-12-------------------13,7кг.
27x9R-12--------------------12,4кг.
27x11R-12-------------------14кг.
27x9R-14--------------------12,6кг.
27x11R-14-------------------14,1кг.
POLARIS Sportsman 800-2012(Winch Polaris 2500,Tires ITP Mud Lite xxl 30)
Polaris Rzr 800-2008( Lone Star Racing a-arms +4,Elka stage 2+R front,Elka stage 4 rear,Exhaust Muzzy Dual,Power comander 3,Tires Maxxis bighorn 1.0 26)
Аватар пользователя
Тимошка
Активный Участник
 
Сообщений: 458
Зарегистрирован: 12 фев 2013, 20:11
Откуда: Барнаул
Благодарил (а): 57 раз.
Поблагодарили: 66 раз.
Техника: POLARIS Sportsman 800-Polaris Rzr 800
Настоящее имя: Артём

Re: Вес резины на ATV

Сообщение ~ZeroCool~ » 26 мар 2013, 16:39

Тимошка писал(а):Данные с офф сайта кенды 6 слоев в палаче :-)


Че то я не понимаю, и продавцы и юзеры все говорят что палач самый тяжелый и "толстый" походу "развели" меня )))))
Тимошка пасиб за инфу! пойду тоже кнопки потыкаю
Не говорите мне что делать и я не скажу куда вам идти...
[Для просмотра изображения необходимо включить JavaScript]
Аватар пользователя
~ZeroCool~
Активный Участник
 
Сообщений: 390
Зарегистрирован: 10 янв 2013, 18:11
Откуда: Сергиев Посад
Благодарил (а): 67 раз.
Поблагодарили: 34 раз.
Техника: CECTEK KingCobraT6, Polaris RZR 800S-тест
Настоящее имя: Андрей

Re: Вес резины на ATV

Сообщение Серый » 01 апр 2013, 23:12

Мужики, я конечно все понимаю, что можно и по гуглить и яндексом воспользоваться :-): , но нах... столько брендов, глаза в кучу. Что лучше, тяжеле резина и больше слоев и протектер как можно больше, или наоборот надо к уменьшению веса стремиться. Как то у меня таких вопросов не возникает при покупке резины на автомобиль, там все по другому, но на вес резины вообще ни разу не обращал внимания. Разъясните недалекому.... :-)
Аватар пользователя
Серый
Активный Участник
 
Сообщений: 319
Зарегистрирован: 06 мар 2013, 23:31
Откуда: Предуралье
Благодарил (а): 35 раз.
Поблагодарили: 15 раз.
Техника: Не указано

Re: Вес резины на ATV

Сообщение atvtyre » 02 апр 2013, 09:51

Да да, а может тиграм в зоопарке мясо не докладывают? )))
Чудес вроде не бывает...
Шины для квадроциклов SUN.F
+7 916 562 52 79 info@atvtyre.ru
http://atvtyre.ru/
Аватар пользователя
atvtyre
Новичок
 
Сообщений: 15
Зарегистрирован: 19 мар 2013, 16:46
Откуда: Подольск
Благодарил (а): 0 раз.
Поблагодарили: 0 раз.
Техника: Крутая

След.

Вернуться в Аксессуары

Катайся качественно

Производитель техники Polaris, совместно с компанией Brandt, в честь 60 летнего юбилея делает исключительное предложение всем любителям активного отдыха стать обладателем качественной техники произведенной в США на ОЧЕНЬ ВЫГОДНЫХ УСЛОВИЯХ.

Подробнее об акции...

Модель:
Ваша фамилия:
Имя:
Отчество:
Дата рождения:
Город проживания:
Паспорт серия:   номер:
выдан когда: кем:
Мобильный телефон: В формате: +7-921-333-2211
Электронная почта:
Ваш дилер:
 

Спасибо, не надо.

Запись на тест-драйв

Запишитесь на тест-драйв мотовездехода Polaris Ranger 570 EFI.

Подробнее об акции...

Фамилия имя отчество:
Город проживания:
Мобильный телефон:
Электронная почта:
Ваш дилер:
 

Спасибо, не надо.

Stelst
  • RedSleds
  • off-road
  • Honda
  • extremestars

Темы Форумчан и Тест-пилотов: обзоры квадроциклов atv, тест-драйвы техники, отзывы — будь вкурсе последних событий!

Клубы квадроциклистов катание на квадроциклах, трассы, встречи — устрой себе покатушки!

Ремзона: обслуживание квадроциклов Polaris

Атв-форум - обсуждения квадроциклов, мотовездеходов, отзывы владельцев, фоторепортажи, сравнения техники.

По вопросам размещения рекламы обращаться
по адресу info@atvforum.ru